СекторГаза.ру: и беседка второй дом родной

Вернуться   СекторГаза.ру: и беседка второй дом родной > Главный вход > Вопросы, идеи и предложения
Имя
Пароль
Все фотоальбомы Пользователи Все разделы прочитаны

Вопросы, идеи и предложения как пользоваться беседкой

Ответ
 
Опции темы
Старый 07.04.2010, 00:56   #1
Sandrak
Gf
 
Регистрация: 07.04.2010
Сообщений: 12
Поблагодарил: 0
Поблагодарили 131 раз(а) в 7 сообщениях
Вопрос Сектор Газа - Пасха (как играть соло?)

люди кто умеет играть соло-партию песни пасха?
может у кого нибудь есть табы или видеоурок?!
Смотреть фотоальбомы Sandrak Sandrak вне форума   Ответить с цитированием
Эти 18 пользователя(ей) сказали Спасибо Sandrak за это полезное сообщение:
Старый 07.04.2010, 21:08   #2
stalker
большой фанат
 
Аватар для stalker
 
Регистрация: 02.09.2007
Возраст: 34
Сообщений: 389
Поблагодарил: 472
Поблагодарили 620 раз(а) в 138 сообщениях
По умолчанию Re: Сектор Газа - Пасха (как играть соло?)

[Только зарегистрированные пользователи могут видеть ссылки. Регистрация!]
__________________
[Только зарегистрированные пользователи могут видеть ссылки. Регистрация!]
Смотреть фотоальбомы stalker stalker вне форума   Ответить с цитированием
Эти 20 пользователя(ей) сказали Спасибо stalker за это полезное сообщение:
Старый 08.04.2010, 16:44   #3
Sandrak
Gf
 
Регистрация: 07.04.2010
Сообщений: 12
Поблагодарил: 0
Поблагодарили 131 раз(а) в 7 сообщениях
По умолчанию Re: Сектор Газа - Пасха (как играть соло?)

а табулатура есть?
а то на видео ничего не разберёшь!
Смотреть фотоальбомы Sandrak Sandrak вне форума   Ответить с цитированием
Эти 14 пользователя(ей) сказали Спасибо Sandrak за это полезное сообщение:
Старый 08.04.2010, 17:43   #4
belocorpse
всемудачи
 
Аватар для belocorpse
 
Регистрация: 13.08.2009
Сообщений: 2,185
Поблагодарил: 762
Поблагодарили 2,019 раз(а) в 671 сообщениях
По умолчанию Re: Сектор Газа - Пасха (как играть соло?)

Цитата:
Сообщение от Sandrak Посмотреть сообщение
а табулатура есть?
а то на видео ничего не разберёшь!
а ноты не пойдут, а то я табулатуры рисовать не умею
Смотреть фотоальбомы belocorpse belocorpse вне форума   Ответить с цитированием
Эти 24 пользователя(ей) сказали Спасибо belocorpse за это полезное сообщение:
Старый 10.04.2010, 00:43   #5
Sandrak
Gf
 
Регистрация: 07.04.2010
Сообщений: 12
Поблагодарил: 0
Поблагодарили 131 раз(а) в 7 сообщениях
По умолчанию Re: Сектор Газа - Пасха (как играть соло?)

ноты я читать не умею.
только табу.
Смотреть фотоальбомы Sandrak Sandrak вне форума   Ответить с цитированием
Эти 15 пользователя(ей) сказали Спасибо Sandrak за это полезное сообщение:
Старый 10.04.2010, 22:53   #6
Gitarist
большой фанат
 
Аватар для Gitarist
 
Регистрация: 29.08.2008
Возраст: 29
Сообщений: 586
Поблагодарил: 575
Поблагодарили 910 раз(а) в 245 сообщениях
По умолчанию Re: Сектор Газа - Пасха (как играть соло?)

Пасха


Дорожка 1
H Q Q H. E E
E||-------|------------------------|-------------------------|
B||-------|------------------10----|--12------------\10--12--|
G||-------|--\9--------12----------|-------------------------|
D||-------|------------------------|-------------------------|
A||-------|------------------------|-------------------------|
E||-------|------------------------|-------------------------|


Q E Q. Q E H Q E
--------------------------|--------------------------|
--13----13--13------12----|--12--10--------------10--|
--------------------------|----------------12--------|
--------------------------|--------------------------|
--------------------------|--------------------------|
--------------------------|--------------------------|


Q E Q. Q E H E E E
--------------------------|---------------------------|
--12----12--12------10----|--10-----------------------|
--------------------------|------12--------9--11--12--|
--------------------------|---------------------------|
--------------------------|---------------------------|
--------------------------|---------------------------|


Q E Q. Q E H E Q H H
--------------------------|--------------------------|--------------------|
--10----10--10------------|--------------------------|--------------------|
--------------------12----|--12--11--------12--11----|--9-----------------|
--------------------------|--------------------------|--------------------|
--------------------------|--------------------------|--------------------|
--------------------------|--------------------------|--------------------|


E E E E Q E T T T T Q. E E E E E
--\17--17--17--17--17----15--14-15-14-15-|--14----------14--------------|
-----------------------------------------|----------17------17--15--17--|
-----------------------------------------|------------------------------|
-----------------------------------------|------------------------------|
-----------------------------------------|------------------------------|
-----------------------------------------|------------------------------|


H. E E H E E E E
-----------------------|---------------\12--14--15--|
--17---------------12--|---L------------------------|
-----------------------|----------------------------|
-----------------------|----------------------------|
-----------------------|----------------------------|
-----------------------|----------------------------|


E E E Q E E T T T T Q. E E E E E
--17--17--17--17----17--15--14-15-14-15-|--14----------14------14--15--|
----------------------------------------|----------17------17----------|
----------------------------------------|------------------------------|
----------------------------------------|------------------------------|
----------------------------------------|------------------------------|
----------------------------------------|------------------------------|


E E E H E E E E E E Q E
--19--19--19--19-----------|--17--19--20--20--20--20----19--|
---------------------------|--------------------------------|
---------------------------|--------------------------------|
---------------------------|--------------------------------|
---------------------------|--------------------------------|
---------------------------|--------------------------------|


Q H Q E Q E Q Q Q
--19----17-------------|--19--17----15--17----15----|--12----|
-----------------------|----------------------------|--------|
-----------------------|----------------------------|--------|
-----------------------|----------------------------|--------|
-----------------------|----------------------------|--------|
-----------------------|----------------------------|--------|


E E E E E Q T T T T Q. E E E Q
--12--14--15--17--17--17----14-15-14-15-|--14----------14------------|
----------------------------------------|----------17------17--15----|
----------------------------------------|----------------------------|
----------------------------------------|----------------------------|
----------------------------------------|----------------------------|
----------------------------------------|----------------------------|


W
--------------------||
--17----------------||
--------------------||
--------------------||
--------------------||
--------------------||
Смотреть фотоальбомы Gitarist Gitarist вне форума   Ответить с цитированием
Эти 23 пользователя(ей) сказали Спасибо Gitarist за это полезное сообщение:
Старый 11.04.2010, 09:48   #7
Gitarist
большой фанат
 
Аватар для Gitarist
 
Регистрация: 29.08.2008
Возраст: 29
Сообщений: 586
Поблагодарил: 575
Поблагодарили 910 раз(а) в 245 сообщениях
По умолчанию Re: Сектор Газа - Пасха (как играть соло?)

Вставилось плохо и подредактировал слегка вот вроде правильно
Пасха

Вступление
E||-------|------------------------|-------------------------|
B||-------|------------------10---|--12------------\10--12-|
G||-------|--\9--------12---------|-------------------------|
D||-------|------------------------|-------------------------|
A||-------|------------------------|-------------------------|
E||-------|------------------------|-------------------------|



--------------------------|--------------------------|
--13----13--13------12-|--12--10--------------10--|
--------------------------|----------------12--------|
--------------------------|--------------------------|
--------------------------|--------------------------|
--------------------------|--------------------------|



--------------------------|---------------------------|
--12----12--12------10-|--10-----------------------|
--------------------------|------12--------9--11--12--|
--------------------------|---------------------------|
--------------------------|---------------------------|
--------------------------|---------------------------|



--------------------------|--------------------------|--------------------|
--10----10--10------------|--------------------------|------------------|
--------------------12----|--12--11--------12--11----|--9-------------|
--------------------------|--------------------------|--------------------|
--------------------------|--------------------------|--------------------|
--------------------------|--------------------------|--------------------|


Соло
-\17--17--17--17--17----15--14-15-14-15-|--14------14-----------------|
-----------------------------------------|----------------17------17---15--17-|
-----------------------------------------|--------------------------------------|
-----------------------------------------|---------------------------------------|
-----------------------------------------|---------------------------------------|
-----------------------------------------|---------------------------------------|



-----------------------|---------------\12--14--15--|
--17------------L--12--|---L------------------------|
-----------------------|----------------------------|
-----------------------|----------------------------|
-----------------------|----------------------------|
-----------------------|----------------------------|



--17--17--17--17----17--15--14-15-14-15-|--14----------14------14--15--|
----------------------------------------|------------------17------17----------|
----------------------------------------|------------------------------|
----------------------------------------|------------------------------|
----------------------------------------|------------------------------|
----------------------------------------|------------------------------|



--19--19--19--19-----------|--------L---------17--19--|
---------------------------|--------------------------|
---------------------------|--------------------------|
---------------------------|--------------------------|
---------------------------|--------------------------|
---------------------------|--------------------------|



--20--20--20--20------19--19--|---L--17--------L--L----|
------------------------------|------------------------|
------------------------------|------------------------|
------------------------------|------------------------|
------------------------------|------------------------|
------------------------------|------------------------|



--19--17----15--17-----L~--15--|---L--12--------12--14--15--|
-------------------------------|----------------------------|
-------------------------------|----------------------------|
-------------------------------|----------------------------|
-------------------------------|----------------------------|
-------------------------------|----------------------------|



--17--17--17--17--17----15--14-15-14-15-|--14----------14------------|
----------------------------------------|-------------------17------17--15----|
----------------------------------------|----------------------------|
----------------------------------------|----------------------------|
----------------------------------------|----------------------------|
----------------------------------------|----------------------------|


H Q Q
-----------------------||
--17--------L----L\----||
-----------------------||
-----------------------||
-----------------------||
-----------------------||
Смотреть фотоальбомы Gitarist Gitarist вне форума   Ответить с цитированием
Эти 21 пользователя(ей) сказали Спасибо Gitarist за это полезное сообщение:
Старый 12.04.2010, 13:27   #8
Sandrak
Gf
 
Регистрация: 07.04.2010
Сообщений: 12
Поблагодарил: 0
Поблагодарили 131 раз(а) в 7 сообщениях
По умолчанию Re: Сектор Газа - Пасха (как играть соло?)

спасибо!!!!!!!
Смотреть фотоальбомы Sandrak Sandrak вне форума   Ответить с цитированием
Эти 20 пользователя(ей) сказали Спасибо Sandrak за это полезное сообщение:
Старый 17.05.2010, 23:17   #9
КОБЗон
фанат
 
Регистрация: 18.04.2009
Возраст: 27
Сообщений: 19
Поблагодарил: 12
Поблагодарили 27 раз(а) в 6 сообщениях
По умолчанию Re: Сектор Газа - Пасха (как играть соло?)

Спасибо за предоставленный материал!!
Смотреть фотоальбомы КОБЗон КОБЗон вне форума   Ответить с цитированием
Эти 19 пользователя(ей) сказали Спасибо КОБЗон за это полезное сообщение:
Старый 08.10.2010, 22:09   #10
Sandrak
Gf
 
Регистрация: 07.04.2010
Сообщений: 12
Поблагодарил: 0
Поблагодарили 131 раз(а) в 7 сообщениях
По умолчанию Re: Сектор Газа - Пасха (как играть соло?)

belocorpse

ноты тоже пойдут, если можно напиши их здесь..

а какие у тебя ещё ноты есть, имеется ввиду музыка сектора?
Смотреть фотоальбомы Sandrak Sandrak вне форума   Ответить с цитированием
Эти 13 пользователя(ей) сказали Спасибо Sandrak за это полезное сообщение:
Старый 09.10.2010, 14:31   #11
Dambler
Выпилен
 
Аватар для Dambler
 
Регистрация: 03.11.2007
Сообщений: 388
Поблагодарил: 73
Поблагодарили 254 раз(а) в 86 сообщениях
По умолчанию Re: Сектор Газа - Пасха (как играть соло?)

не уж то у вас блин совсем слуха нет?
Смотреть фотоальбомы Dambler Dambler вне форума   Ответить с цитированием
Эти 15 пользователя(ей) сказали Спасибо Dambler за это полезное сообщение:
Старый 09.10.2010, 22:04   #12
Sandrak
Gf
 
Регистрация: 07.04.2010
Сообщений: 12
Поблагодарил: 0
Поблагодарили 131 раз(а) в 7 сообщениях
По умолчанию Re: Сектор Газа - Пасха (как играть соло?)

dambler

ну не всем это дано на слух подбирать..
Смотреть фотоальбомы Sandrak Sandrak вне форума   Ответить с цитированием
Старый 10.10.2010, 03:38   #13
Холод
Любитель
 
Аватар для Холод
 
Регистрация: 05.07.2008
Возраст: 34
Сообщений: 1,782
Поблагодарил: 517
Поблагодарили 1,360 раз(а) в 461 сообщениях
По умолчанию Re: Сектор Газа - Пасха (как играть соло?)

Если не дано на слух подбирать,то тогда нечего гитару мучать...
Смотреть фотоальбомы Холод Холод вне форума   Ответить с цитированием
Эти 24 пользователя(ей) сказали Спасибо Холод за это полезное сообщение:
Старый 10.10.2010, 12:35   #14
Sandrak
Gf
 
Регистрация: 07.04.2010
Сообщений: 12
Поблагодарил: 0
Поблагодарили 131 раз(а) в 7 сообщениях
По умолчанию Re: Сектор Газа - Пасха (как играть соло?)

Холод

да ты чё! умничать тоже ненадо
Смотреть фотоальбомы Sandrak Sandrak вне форума   Ответить с цитированием
Старый 11.10.2010, 11:26   #15
Master Keyan
ВидеоманЪ
 
Аватар для Master Keyan
 
Регистрация: 21.11.2007
Возраст: 27
Сообщений: 1,468
Поблагодарил: 256
Поблагодарили 898 раз(а) в 285 сообщениях
По умолчанию Re: Сектор Газа - Пасха (как играть соло?)

Sandrak, он прав. Ни к чему сразу хвататься за табы. Надо пытаться подобрать самому. Не получается - можно посмотреть. Но если вот так вот, по чуть-чуть - слух будет развиваться.
__________________
Куплю CD: [Только зарегистрированные пользователи могут видеть ссылки. Регистрация!]
Смотреть фотоальбомы Master Keyan Master Keyan вне форума   Ответить с цитированием
Эти 14 пользователя(ей) сказали Спасибо Master Keyan за это полезное сообщение:
Старый 24.03.2012, 13:49   #16
popec
фанат
 
Регистрация: 21.03.2012
Сообщений: 4
Поблагодарил: 0
Поблагодарили 71 раз(а) в 4 сообщениях
По умолчанию Re: Сектор Газа - Пасха (как играть соло?)

Подскажите кто знает как играть соло Трипак?
Смотреть фотоальбомы popec popec вне форума   Ответить с цитированием
Эти 18 пользователя(ей) сказали Спасибо popec за это полезное сообщение:
Ответ


Здесь присутствуют: 1 (пользователей: 0 , гостей: 1)
 
Опции темы

Ваши права в разделе
Вы не можете создавать новые темы
Вы не можете отвечать в темах
Вы не можете прикреплять вложения
Вы не можете редактировать свои сообщения

BB коды Вкл.
Смайлы Вкл.
[IMG] код Вкл.
HTML код Выкл.

Быстрый переход


СекторГаза.РУ Трибьют Сектор Газа Официальный сайт
18+

Powered by vBulletin® Version 3.8.7
Copyright ©2000 - 2017, Jelsoft Enterprises Ltd. Перевод: zCarot